Master of Puppets – Metallica

Intro
4/4
|----------|------------|-------------|------------|----------|--------|---------|
|----------|------------|-------------|------------|----------|--------|---------|
|----------|5---4---3---|(3)----------|------------|----------|--------|---------|
|0---------|------------|-------------|0-----------|----------|--------|-------1-|

||-------|------------|--------|---------||--------|------------|---------------|---------------|
||:------|------------|--------|--------:||--------|------------|---------------|---------------|
||-------|5---4---3---|--------|---------||--------|5---4---3---|---3-3-3-3-3-3-|3-3-3-3-3-3-3-3|
||-0-----|------------|--------|------1--||0-------|------------|---------------|---------------|

|----------------||----------|----------|----------|-----------------||
|----------------||:---------|----------|----------|----------------:||
|3-3-3-3-3-3-3-3-||----------|----------|----------|-----------------||
|----------------||-0--------|----------|----------|3\2-0-3\2-0-3\2--||
                                                     S     S     S

||-----------------|----------------|----------------|----------------|
||:----------------|----------------|----------------|----------------|
||-----2-----3-----|4-----3-----2-2-|----2-----3-----|4-----3-----2---|
||-0-1---0-1---0-1-|--0-1---0-1-----|0-1---0-1---0-1-|--0-1---0-1-----|

|-----------------|----------------|----------------|-----------------||
|-----------------|----------------|----------------|----------------:||
|-----2-----3-----|4-----3-----2-2-|----2-----3-----|-----------------||
|-0-1---0-1---0-1-|--0-1---0-1-----|0-1---0-1---0-1-|3\2-0-3\2-0-3\2--||
                                                      S     S     S

|-----------------|----------------|------------------||
|-----------------|----------------|------------------||
|-----------------|----------------|------------------||
|3\2-0-3\2-0-3\2--|0---------------|---------------8\-||

Bass riff1                                            5/8
||-----------------|----------------|----------------|-----------||
||:----------------|----------------|----------------|----------:||
||-----------------|----------------|----------------|-----------||
||-0-0-0-0-0-0-0-0-|0-3-5-0-6\5-3-5-|0-0-0-0-0-0-0-0-|0-3/5-3/5--|| end of riff1
                       H     S   H

1st, 2nd, 3rd Verses 
Bass riff1 X4

Bass riff2 X2                                       5/8        
|----------------|----------------|----------------|----------|
|----------------|----------------|----------------|----------|
|----------------|----------------|----------------|----------|
|2-2-2-2-2-2-2-2-|2-5/7---8\7-5/7-|2-2-2-2-2-2-2-2-|2-5/7-5/7-| end of riff2

Pre-chorus
|----------------||----------------|---------------|----------------|----------------|
|----------------||----------------|---------------|----------------|--------1-------|
|----------------||7-------5---7---|---------------|3-3-3-3-3---2---|3-3-3-3-----2---|
|7-7-7-7-7-7-7-7-||--0-0-0---------|0------2-3-----|----------------|----------------|

                                                    ------------------   --------------
                                                    |1.2.             | |3.           
||-----------------|---------------|----------------|-----------------||--------------|
||:----------------|---------------|----------------|--------1-------:||4-2-1---1-----|
||-7-------5---7---|---------------|3-3-3-3-3---2---|3-3-3-3-----2----||----------3-2-|
||---0-0-0---------|0------2-3-----|----------------|-----------------||--------------|

                                    Chorus           2/4      4/4
|----------------|----------------||----------------|--------|----------------|-----------------|
|----------------|----------------||----------------|--------|----------------|-----------------|
|----------------|----------------||----------------|--------|----------------|-----------------|
|0---0-----------|1---1-----------||0-----------0-0-|2-0-0-0-|3---3-3---3-3---|3-3-3-3-3-3-333--|
                                                      P
                  2/4      4/4                                                 2/4
|----------------|--------|----------------|----------------|-----------------|--------|
|----------------|--------|----------------|----------------|-----------------|--------|
|3---2-3-3-0-0-0-|2-0-0-0-|0---0-0---0-0---|(0)-------------|5----------------|5-------|
|----------------|--------|----------------|----------------|-----------3-3-3-|----0-0-|

4/4               2/4      4/4                                                 2/4
|----------------|--------|----------------|----------------|-----------------|--------|
|----------------|--------|----------------|----------------|-----------------|--------|
|3---3-3---3-3---|3-3-3---|----------------|----------------|-----------------|--------|
|----------------|--------|0---0-----------|1---1-----------|0----------0-0-0-|2-0-0-0-|
                                                                                P

 4/4                                                                  2nd time to Coda1
|----------------|----------------|----------------|----------------||3rd time to Coda2
|----------------|----------------|----------------|----------------||
|3---3-3---3-3---|3-3-2-2-0-0-----|----------------|----------------||
|----------------|------------3-3-|0---0-----------|1---1-----------||

                                                      -----------------   ------------------
                                                     |1.               | |2.
||-----------------|----------------|----------------|-----------------||-----------------|
||:----------------|----------------|----------------|----------------:||-----------------|
||-----2-----3-----|4-----3-----2-2-|----2-----3-----|4-----3-----2----||-----------------|
||-0-1---0-1---0-1-|--0-1---0-1-----|0-1---0-1---0-1-|--0-1---0-1------||3\2-0-3\2-0-3\2--|
                                                                          S     S     S
                   D.S al Coda1           Coda1
|-----------------|                       |----------------|----------------||
|-----------------|                       |----------------|----------------||
|-----------------|                       |----------------|----------------||
|3\2-0-3\2-0-3\2--|                       |----------------|----------------||
  S     S     S

Interlude
 2/4      4/4         2/4                4/4                                              2/4
|--------|-----------|--------||--------|---------------|---------------|----------------|------|
|--------|--3 pause--|--------||--------|---------------|---------------|----------------|------|
|--------|-----------|--------||7-------|5--------------|3--------------|0-------2-------|6-----|
|--------|-----------|--------||--------|---------------|---------------|----------------|------|

Interlude riff1
             4/4                                                2/4
||---------|----------------|----------------|----------------|---------||
||:--9-9---|----------------|----------------|----------------|--------:||
||-7-----7-|5-----5-5-5---5-|3-3---333-3-0-3-|0-----0-2-220-2-|66660-6--||End of Interlude riff1
||---------|------------5---|----------------|----------------|---------||

Guitar solo1
            4/4                                                2/4
||---------|----------------|----------------|----------------|---------||
||:--9-----|----------------|----------------|----------------|--------:||
||-7---7-7-|5-----555-5-7-5-|3-3-----3-3-0-3-|0-----0-2-220-2-|66660-6--||
||---------|----------------|------33--------|----------------|---------||

Interlude riff1 X2

            4/4                                                2/4
||---------|----------------|----------------|----------------|---------||
||:--------|----------------|----------------|----------------|--------:||
||---------|----------------|----------------|----------------|6-6-6-6--||
||-0-0-0-0-|2-2-2-2-2-2-2-2-|3-3-3-3-3-3-3-3-|5-5-5-5-7-7-7-7-|---------||

  4/4                                                                     X6
||----------------|----------------||-----------------|-----------------||
||----------------|----------------||:----------------|----------------:||
||----------------|----------------||---------------44|--------------4--||
||0-0-0-0-0-0-0-0-|0-0-0-0-0-0-0-0-||-2-2-3-2-2-2-3---|2-2-3-2-2-2-3----||

||----------------|-----------------|----------------|----------------||
||----------------|-----------------|----------------|5-4-2-2-0-------||
||----------------|-----------------|----------------|----------4-2-0-||
||3---3---3-3-3-3-|(3)3-3---3-3-3---|2---2---2-2-2---|----------------||

Guitar solo2
Bass riff1 X4
Bass riff2 X2

|----------------||-----------------|----------------|----------------|-----------------||
|----------------||:----------------|----------------|----------------|----------------:||
|----------------||-----------------|------------2-2-|----------------|------------2----||
|7-7-7-7-7-7-7-7-||-0-0-1-0-0-1-0-0-|1-0-0-1-0-0-----|0-0-1-0-0-1-0-0-|1-0-0-1-0-0------||

                                                                      X4
|----------------|----------------|----------------|----------------||
|----------------|------------0-2-|4-5-------------|------0---------||
|----------------|------0-2-3-----|----3---------33|3-2-3---3-2-----||
|0-0-0-0-0-0-0-0-|0-2-3-----------|----------------|------------3-2-||

|----------------|----------------||-----------------|----------------|----------------|
|----------------|------0---------||:----------------|----------------|----------------|
|--------------33|3-2-3---3-2-----||-----------------|----------------|----------------|
|0---------------|------------3-2-||-0---------------|----------------|----------------|

                                    D.S. al Coda2      Coda2
|-----------------||----------------||                 ||-----------------|---------------|
|----------------:||----------------||                 ||:----------------|---------------|
|-----------------||----------------||                 ||-----------------|---------------|
|3\2-0-3\2-0-3\2--||3\2-0-3\2-0-3\2-||                 ||-0-0-0-0-0-0-0-0-|0-3-5-0-6\5-3-5|
  S     S     S      S     S     S                                            H     S   H  

                  5/8       x8 4/4
|----------------|-----------||----------------|----------------|----------------||
|----------------|----------:||----------------|----------------|----------------||
|----------------|-----------||----------------|----------------|----------------||
|0-0-0-0-0-0-0-0-|0-3/5-3/5--||----------------|3\2-0-3\2-0-3\2-|0---------------||

Leave a Reply

You must be logged in to post a comment.

Novità
Random guitar rhythm
Count per Day
  • 358102Total reads:
  • 31Reads today:
  • 553Reads last week:
  • 1459Reads per month:
  • 199027Total visitors:
  • 42Visitors per day:
  • 1Visitors currently online:
Clicca e Ascolta Scream Radio

A add9


Translate
EnglishFrenchGermanItalianPortugueseRomanianRussianSpanish
Cerca
Electric Guitar Learn

Advanced Training (20)
Band Emergenti (4)
Bass Lesson (50)
Beginners Training (51)
Blues (19)
Country (1)
Download (5)
Eventi e Concerti (5)
Hard Rock (22)
Intermediate Training (63)
Metal (21)
No Category (12)
Pop (13)
Punk (8)
Recensioni (1)
Rock (56)
Rock 'n Roll (6)
Rythm (37)
Scales (2)
Style (2)
Uncategorized (2)

WP Cumulus Flash tag cloud by Roy Tanck requires Flash Player 9 or better.

Active Categories