You Really Got Me – The Kinks/Van Halen

kinks
you really got me

intro
(riff 1)
 F5 G5 F5 G5
------------|
------------|
------------|
-3--5-5-3-5-|
-3--5-5-3-5-|
-1--3-3-1-3-|

verses
(w/riff 1)
(1)girl you really got me going          you got me so i dont know what im doing
(2,3)see dont ever set me free           i always wanna be your side

yeah you really got knowing              you got me so i cant sleep at night
yeah you really got knowing              you got me so i cant sleep at night

(riff 2)
 G5 A5 G5 A5
------------|
------------|
------------|
-5--7-7-5-7-|
-5--7-7-5-7-|
-3--5-5-3-5-|

(w/riff 2)
yeah you really got me now  you got me so I dont know what im doing now

(riff 3
 C5  D5    C5 D5
-----------------|
-----------------|
-----------------|
-10--12-12-10-12-|
-10--12-12-10-12-|
-8---10-10-8--10-|

(w/riff 3)
oh yeah you really got me now you got me so I cant sleep at night

chorus
                                                         C5
you really got me you really got me you really got me

solo

-------------------------------------------------------------------------------------------|
-------------------3-----------------------------------------------------------------------|
-5b-5b-5b-5b-5b-5b---5b6-6r5p3p0--3-0-3-0-3-0-3-0-3-0-3-5b6-6r5p3p0--3-0-3-0-3-5b6-6r5p3p0-|
-------------------------------------------------------------------------------------------|
-------------------------------------------------------------------------------------------|
-------------------------------------------------------------------------------------------|

-6p3------------------------------------------6p3---------------------------------------------------------|
-----3--------------------------------------------3-------------------------------------------------------|
-------5b6-6r5p3p0--3-0-3-0-3-5b6-5b6-6r5p3p0-------5b6-6r5p3p0--3-0-3-0-3--5b6-5b6-5b6-5b6-5b6--5b6--5b6-|
----------------------------------------------------------------------------------------------------------|
----------------------------------------------------------------------------------------------------------|
----------------------------------------------------------------------------------------------------------|

ending
D     D7
Ed ecco ora le intavolature dei Van Halen
Guitar - E. Van Halen

D#||-------------------|-------------------------|-------------------------|
A#||-------------------|------------------x-x----|------------------x-x----|
F#||-------------------|--2--2-----2------x-x----|--2--2-----2------x-x----|
C#||-------------------|--2--2-----2------x-x----|--2--2-----2------x-x----|
G#||-------------------|--0--0-----0------x-x----|--0--0-----0------x-x----|
D#||----------------3--|--------3-------------3--|--------3-------------3--|

-------------------------|------------------------|--------------------------|
------------------x-x----|------------------------|--------------------------|
--2--2-----2------x-x----|--2--2-----2----2/------|--2--2-----2--x--x--x-----|
--2--2-----2------x-x----|--2--2-----2----2/------|--2--2-----2--x--x--x-----|
--0--0-----0------x-x----|--0--0-----0------------|--0--0-----0--------------|
--------3-------------3--|--------3------------3--|--------3--------------3--|

--------------------------|--------------------------|------------------------|
--------------------------|--------------------------|------------------------|
--2--2-----2--x--x--x-----|--2--2-----2--x--x--x-----|--2--2------------------|
--2--2-----2--x--x--x-----|--2--2-----2--x--x--x-----|--2--2------------------|
--0--0-----0--------------|--0--0-----0--------------|--0--0------------------|
--------3--------------3--|--------3--------------3--|--------3b-3~----15/----|

-----------------------|------------------------|-----------------------|
-----------------------|------------------------|-----------------------|
--2--2-----2-----------|--2--2-----2------------|--2--2-----2----4r-----|
--2--2-----2-----------|--2--2-----2------x-----|--2--2-----2-----------|
--0--0-----0-----------|--0--0-----0------x-----|--0--0-----0-----------|
--------3-----------3--|--------3------------3--|--------3--------------|

--------------------------|------------------------|------------------------|
--------------------------|------------------------|------------------------|
--4b-2--------------------|--2--2-----2------------|--2--2-----2------------|
--------3b-3--2-----------|--2--2-----2------x-----|--2--2-----2------x-----|
-----------------3b-3--2--|--0--0-----0------x-----|--0--0-----0------x-----|
--------------------------|--------3------------3--|--------3------------3--|

-----------------------|--------------------------|------------------------|
-----------------------|--------------------------|------------------------|
--2--2-----2----7r-----|--5--7b-------------------|--4--4-----4------------|
--2--2-----2-----------|--------5b-7--------------|--4--4-----4------x-----|
--0--0-----0-----------|--------------5b-7--3/-5--|--2--2--0--2------x--0--|
--------3--------------|--------------------------|------------------------|

-----------------------|------------------------|--------------------------|
-----------------------|------------------------|--------------------------|
--4--4-----4-----------|------------------x-----|--------------------------|
--4--4--4--4--------4--|--4--4--4--4------x-----|--4--4--4--4-----7-7--8-8-|
--2--2--0--2--------0--|--2--2--0--2---------0--|--2--2--0--2-----5-5--6-6-|
-----------------------|------------------------|--------------------------|

------------------------|-----------------------|-------------------------|
------------------------|-----------------------|-------------------------|
--9--9--7--9------x--7--|--9--9--7--9--------7--|--9--9--7--9------x------|
--9--9--7--9------x--7--|--9--9--7--9--------7--|--9--9--7--9------x------|
--7--7--5--7------x--5--|--7--7--5--7--------5--|--7--7--5--7------x-5-5--|
------------------------|-----------------------|-------------------------|

----------------------------|----------------------|-------------------------|
--9--9--7--x-x----------7-7-|--9--9--7-------------|--9--9--7--9-------------|
--9--9--7--x-x----------7-7-|--9--9--7--9r---------|--9--9--7--9------x-x----|
--9--9--7--x-x-------2--7-7-|--9--9--7-------------|--9--9--7--9------x-x----|
--7--7--5---------------5-5-|--7--7--5-------------|--7--7--5--7------x-x----|
---------------0--9b--------|----------------------|----------------------0--|

--------------------|---------------------|-----------------------|
--7--------------x--|---------------------|-----------------------|
--7--------------x--|------x--------------|-----------------------|
--7-----------------|------x--------------|--2--2-----2-----------|
--5-----------------|------x--------------|--0--0-----0-----------|
--------------------|---------------15/---|--------3-----------3--|

-----------------------|-----------------------|-----------------------------|
-----------------------|-----------------------|-----------------------------|
-----------------------|----------------9r-----|----7h9h7/6------------------|
--2--2-----2-----------|--2--2-----2-----------|-------------7---------------|
--0--0-----0-----------|--0--0-----0-----------|----------------7------------|
--------3-----------3--|--------3--------------|-------------------9b-----9/-|

-----------------------|-----------------------|
-----------------------|-----------------------|
-----------------------|-----------------------|
-----2-----2-----------|--2--2-----2-----------|
-----0-----0-----------|--0--0-----0-----------|
--4-----3-----------3--|--------3-----------3--|

----------------------------------|--------------------------------------|
----------------5h8h5h8h5h8h5h8h5-|--9h8h5-9h-8h5-9h5h8h5-9h5-9t---------|
----------------------------------|--------------------------------------|
--2--2-----2----------------------|--------------------------------------|
--0--0-----0----------------------|--------------------------------------|
--------3-------------------------|--------------------------------14/---|

-----------------------|-----------------------|-----------------------|
-----------------------|-----------------------|-----------------------|
--4--4-----4-----------|-----------------------|-----------------------|
--4--4-----4-----------|--4--4--4--4--------4--|--4--4--4--4-----------|
--2--2--0--2--------0--|--2--2--0--2--------0--|--2--2--0--2--------0--|
-----------------------|-----------------------|-----------------------|

------------------------|-----------------------|-----------------------|
------------------------|--9--9--7--9--------7--|--9--9--7--9--------7--|
------------------7--8--|--9--9--7--9--------7--|--9--9--7--9--------7--|
--4--4--4--4------7--8--|--9--9--7--9--------7--|--9--9--7--9--------7--|
--2--2--0--2------5--6--|--7--7--5--7--------5--|--7--7--5--7--------7--|
------------------------|-----------------------|-----------------------|

-----------------------|-----------------------|------------------------|
--9--9--7--9--------7--|--9--9--7--9--------7--|--9---------------------|
--9--9--7--9--------7--|--9--9--7--9--------7--|--9---------------------|
--9--9--7--9--------7--|--9--9--7--9--------7--|--9---------------------|
--7--7--5--7--------5--|--7--7--5--7--------5--|--7---------------------|
-----------------------|-----------------------|-------x--x--3--5--2----|

-------------------------|-------------------|--------------------|
--9--9--7--9-------------|--7----------------|---------------5----|
--9--9--7--9------x------|--7----------------|----x----------7b---|
--9--9--7--9------x------|--7----------------|----x---------------|
--7--7--7--7------x------|--5----------------|----x---------------|
--------------------12---|-------------------|--------------------|

--5--5-5----5-5-5-----5-5-5--|-----5-----------------------------|
--5--5-5----5-5-5-----5-5-5--|-----5-------------x-5h8-10h5h8-10h|
---------7b--------7b--------|--7b---7r---5-7b-------------------|
-----------------------------|-----------------------------------|
-----------------------------|-----------------------------------|
-----------------------------|-----------------------------------|

-----------------------------------------------------------|
--5h8-10h5h8-10h5/4-10h7h4-10h7h4h3-10h6h3-10h6h3-10h2-----|
-------------------------------------------------------4r--|
-----------------------------------------------------------|
-----------------------------------------------------------|
-----------------------------------------------------------|

--------------------17-----|--------------17-------17-|
-----------------------20r-|-------20b-------20b------|
---9t---4---2----18--------|--------------------------|
---------------------------|--------------------------|
---------------------------|--------------------------|
---------------------------|--------------------------|

---------------------------------------|-------------------------------|
--20h17----17----------------------12b-|----17--17b-17--17b-17r-----17-|
--------19----19r---17-19~------17-----|-------------------------------|
-----------------------------16--------|-------------------------------|
---------------------------------------|-------------------------------|
---------------------------------------|-------------------------------|

-------------------------------|-------------------|---------------------|
-------------------------------|-------------------|---------------------|
--17-17r--14-------14~---------|--9b---------------|-----------9---9--9--|
-------------------------------|-------------------|---------------------|
-------------15-16----------x--|-------------------|---------------------|
----------------------------x--|-------------------|---------------------|

-------------------------------|--------------------------|------------------|
-------------------------------|--------------------------|------------------|
--9--9--9--9--9--9--9--9-9-9-9-|--9--9--9--x--------------|------------------|
-------------------------------|-----------x--------------|------------------|
-------------------------------|-----------x--------------|------------------|
-------------------------------|--------------------15/---|------------------|

------------------|------------------|------------------|------------------|
------------------|------------------|------------------|------------------|
------------------|------------------|------------------|------------------|
------------------|------------------|------------------|------------------|
------------------|------------------|------------------|------------------|
------------------|------------------|------------------|------------------|

------------------|------------------|---------------------|------------------|
------------------|------------------|---------------------|------------------|
------------------|------------------|--------5------------|------------------|
------------------|------------------|-------------5----7--|------------------|
------------------|------------------|---------------------|------------------|
------------------|------------------|---------------------|------------------|

------------------|-------------------|-----------------------|
------------------|-------------------|-----------------------|
------------------|----------------x--|--x----x----x----------|
------------------|----------------x--|--x----x----x----------|
------------------|----------------x--|--x----x----x----------|
------------------|-------------------|---------------14------|

-----------------------|-----------------------|-----------------------|
-----------------------|-----------------------|-----------------------|
-----------------------|-----------------------|-----------------------|
--4--4--4--4--------4--|--4--4--4--4--------4--|--4--4--4--4--------4--|
--2--2--0--2--------0--|--2--2--0--2--------0--|--2--2--0--2--------0--|
-----------------------|-----------------------|-----------------------|

------------------------|-----------------------|-----------------------|
------------------------|--------------------7--|--9--9--7--9--------7--|
------------------2--3--|--------------------7--|--9--9--7--9--------7--|
--4--4--4--4------0--1--|--9--9--7--9--------7--|--9--9--7--9--------7--|
--2--2--0--2------------|--7--7--5--7--------5--|--7--7--5--7--------5--|
------------------------|-----------------------|-----------------------|

-------------------------|---------------------------|-----------------------|
--9--9--7--9----------7--|--9----7---------------7-7-|--9---9-7-----------7--|
--9--9--7--9------x-x-7--|--9----7---------------7-7-|--9---9-7-----------7--|
--9--9--7--9------x-x-7--|--9----7------------2--7-7-|--9---9-7-----------7--|
--7--7--5--7------x-x-5--|--7----5---------------5-5-|--7---7-5--7b-------5--|
-------------------------|----------12/-0--3b--------|-----------------------|

-----------------------|-----------------------|
--9--9-----------------|--9----9----9----12----|
--9--9--x--9b----------|--9----9----9----12----|
--9--9--x--------------|--9----9----9----12----|
--7--7--x--------------|--7----7----7----x-----|
--------------------0--|--0----0----0----0-----|

---12----12----------------------12----------------------------------------|
------15b---12h15h12----12h15h12----12h15h12----12-------------------------|
---------------------15----------------------16----15-14h12----14----11h12-|
------------------------------------------------------------14----14-------|
---------------------------------------------------------------------------|
---------------------------------------------------------------------------|

---------------------------------------------------|-------------------||
---------------------------------------------------|-------------------||
--11----11-----------------------------------------|-------------------||
-----14----12-14-11h12h11----11--------------------|-------------------||
--------------------------14----12/11/9/7/5---2b---|--2----------------||
---------------------------------------------------|--0----------------||

Leave a Reply

You must be logged in to post a comment.

Novità
Random guitar rhythm
Count per Day
  • 364780Total reads:
  • 65Reads today:
  • 509Reads last week:
  • 1401Reads per month:
  • 202408Total visitors:
  • 35Visitors per day:
  • 0Visitors currently online:
Clicca e Ascolta Scream Radio

A add9


Translate
EnglishFrenchGermanItalianPortugueseRomanianRussianSpanish
Cerca
Electric Guitar Learn

Advanced Training (20)
Band Emergenti (4)
Bass Lesson (50)
Beginners Training (51)
Blues (19)
Country (1)
Download (5)
Eventi e Concerti (5)
Hard Rock (22)
Intermediate Training (63)
Metal (21)
No Category (12)
Pop (13)
Punk (8)
Recensioni (1)
Rock (56)
Rock 'n Roll (6)
Rythm (37)
Scales (2)
Style (2)
Uncategorized (2)

WP Cumulus Flash tag cloud by Roy Tanck requires Flash Player 9 or better.

Active Categories