Indestructible – Disturbed

Intro X2

D|------------------------------------------------------------------------------|
A|------------------------------------------------------------------------------|
F|------------------------------------------------------------------------------|
C|-5/7-----7---10----7----8----85/7---10---7---8---8-8-8------------------------|
G|-3/5-----5---8-----5----6----63/5---8----5---6---6-6-6------------------------|
C|-----0-0---0----00---00---00------0----0---0---0------------------------------|

D|------------------------------------------------------------------------------|
A|------------------------------------------------------------------------------|
F|------------------------------------------------------------------------------|
C|-5/7-----7---10----7----8----85/7---10---7------------------------------------|
G|-3/5-----5---8-----5----6----63/5---8----5------------------------------------|
C|-----0-0---0----00---00---00------0----0---7-7-7-10-7-------------------------|

Verse X1

D|------------------------------------------------------------------------------|
A|------------------------------------------------------------------------------|
F|------------------------------------------------------------------------------|
C|-------7-10----------------------------------7-10------7----------------------|
G|----10------------8-10-12------7-8-5------10------8-10-------7-8---10---8-----|
C|0-0---------0-0-0---------0-0--------0-0----------------0-0------0----0-------|

D|------------------------------------------------------------------------------|
A|------------------------------------------------------------------------------|
F|------------------------------------------------------------------------------|
C|-------7-10--------------------------------7-10------7----------------3-------|
G|----10------------8-10-12-----7-8-5-----10------8-10-------7-8---10-----------|
C|0-0---------0-0-0---------0-0-------0-0----------------0-0-----0----0---------|

D|------------------------------------------------------------------------------|
A|------------------------------------------------------------------------------|
F|------------------------------------------------------------------------------|
C|-------7-10----------------------------------7-10------7----------------------|
G|----10------------8-10-12------7-8-5------10------8-10-------7-8---10---8-----|
C|0-0---------0-0-0---------0-0--------0-0----------------0-0------0----0-------|

D|------------------------------------------------------------------------------|
A|------------------------------------------------------------------------------|
F|------------------------------------------------------------------------------|
C|-------7-10---------------------------------7-10------7----------------3------|
G|----10------------8-10-12-----7-8-12-----10------8-10-------7-8---10----------|
C|0-0---------0-0-0---------0-0-------0-0-----------------0-0-----0----0--------|

Please take notice how Dan goes to the 3 for a slightly different tone ^
Watch close video and live, it seems to be there.

PreChorus X1

D|------------------------------------------------------------------------------|
A|------------------------------------------------------------------------------|
F|------------------------------------------------------------------------------|
C|-5--55-5--55-5/3--8-88-8-88-8/7-----------------------------------------------|
G|-5--55-5--55-5/3--8-88-8-88-8/7-----------------------------------------------|
C|-5--55-5--55-5/3--8-88-8-88-8/7-----------------------------------------------|

Chorus X1

D|------------------------------------------------------------------------------|
A|------------------------------------------------------------------------------|
F|------------------------------------------------------------------------------|
C|-0-0---0----7-5/7---0-0-0-----7-8\7-----1-1-111-------------------------------|
G|-0-0---0----5-3/5---0-0-0-----5-6\5-----1-1-111-------------------------------|
C|-0---0----0---------0---0-00--------0-0-1-1-111-------------------------------|
   d d u d  d         d d u dd
   PM------PM         PM----PM        P-M

 Listen hard for the above open C notes, they're there.

D|------------------------------------------------------------------------------|
A|------------------------------------------------------------------------------|
F|------------------------------------------------------------------------------|
C|-0-0---0----7-5/7---0-0-0-----7-8\7-----1-1-33-1------------------------------|
G|-0-0---0----5-3/5---0-0-0-----5-6\5-----1-1-33-1------------------------------|
C|-0---0----0---------0---0-00--------0-0-1-1-33-1------------------------------|
   d d u d  d         d d u dd
   PM------PM         PM----PM        P-M

D|------------------------------------------------------------------------------|
A|------------------------------------------------------------------------------|
F|-2------------------2---------------------------------------------------------|
C|-0-0---0----7-5/7---0-0-0-----7-8\7-----1-1-111//-----------------------------|
G|-0-0---0----5-3/5---0-0-0-----5-6\5-----1-1-111//-----------------------------|
C|-0---0----0---------0---0-00--------0-0-1-1-111//-----------------------------|
   d d u d  d         d d u dd
   PM------PM         PM----PM        P-M        Slide to 8's below.

D|------------------------------------------------------------------------------|
A|------------------------------------------------------------------------------|
F|------------------------------------------------------------------------------|
C|-8-8-8-8-8-8-8-8-8-8-8-8-8-8-8--8-7--8-7-9-7--8-7-9-7-8-7---------------------|
G|-8-8-8-8-8-8-8-8-8-8-8-8-8-8-8--8-7--8-7-9-7--8-7-9-7-8-7---------------------|
C|-8-8-8-8-8-8-8-8-8-8-8-8-8-8-8--8-7--8-7-9-7--8-7-9-7-8-7---------------------|

Listen hard above for timing here <----------------------->

This section (above) was modified 7/27/2009. Sorry if you learned it the other way,
this is simply more accurate.

Intro X2

D|------------------------------------------------------------------------------|
A|------------------------------------------------------------------------------|
F|------------------------------------------------------------------------------|
C|-5/7-----7---10----7----8----85/7---10---7---8---8-8-8------------------------|
G|-3/5-----5---8-----5----6----63/5---8----5---6---6-6-6------------------------|
C|-----0-0---0----00---00---00------0----0---0---0------------------------------|

D|------------------------------------------------------------------------------|
A|------------------------------------------------------------------------------|
F|------------------------------------------------------------------------------|
C|-5/7-----7---10----7----8----85/7---10---7------------------------------------|
G|-3/5-----5---8-----5----6----63/5---8----5------------------------------------|
C|-----0-0---0----00---00---00------0----0---7-7-7-10-7-------------------------|

Verse X1

D|------------------------------------------------------------------------------|
A|------------------------------------------------------------------------------|
F|------------------------------------------------------------------------------|
C|-------7-10----------------------------------7-10------7----------------------|
G|----10------------8-10-12------7-8-5------10------8-10-------7-8---10---8-----|
C|0-0---------0-0-0---------0-0--------0-0----------------0-0------0----0-------|

D|------------------------------------------------------------------------------|
A|------------------------------------------------------------------------------|
F|------------------------------------------------------------------------------|
C|-------7-10--------------------------------7-10------7----------------3-------|
G|----10------------8-10-12-----7-8-5-----10------8-10-------7-8---10-----------|
C|0-0---------0-0-0---------0-0-------0-0----------------0-0-----0----0---------|

D|------------------------------------------------------------------------------|
A|------------------------------------------------------------------------------|
F|------------------------------------------------------------------------------|
C|-------7-10----------------------------------7-10------7----------------------|
G|----10------------8-10-12------7-8-5------10------8-10-------7-8---10---8-----|
C|0-0---------0-0-0---------0-0--------0-0----------------0-0------0----0-------|

D|------------------------------------------------------------------------------|
A|------------------------------------------------------------------------------|
F|------------------------------------------------------------------------------|
C|-------7-10--------------------------------7-10------7------------------------|
G|----10------------8-10-12-----7-8-5-----10------8-10--------------------------|
C|0-0---------0-0-0---------0-0-------0-0---------------------------------------|

                Please pay attention to the changes here at the 3 above ^.
                Listen hard the change is there.

PreChorus X1

D|------------------------------------------------------------------------------|
A|------------------------------------------------------------------------------|
F|------------------------------------------------------------------------------|
C|-5--55-5--55-5/3--8-88-8-88-8/7-----------------------------------------------|
G|-5--55-5--55-5/3--8-88-8-88-8/7-----------------------------------------------|
C|-5--55-5--55-5/3--8-88-8-88-8/7-----------------------------------------------|

Chorus X1

D|------------------------------------------------------------------------------|
A|------------------------------------------------------------------------------|
F|------------------------------------------------------------------------------|
C|-0-0---0----7-5/7---0-0-0-----7-8\7-----1-1-111-------------------------------|
G|-0-0---0----5-3/5---0-0-0-----5-6\5-----1-1-111-------------------------------|
C|-0---0----0---------0---0-00--------0-0-1-1-111-------------------------------|
   d d u d  d         d d u dd
   PM------PM         PM----PM        P-M

 Listen hard for the above open C notes, they're there.

D|------------------------------------------------------------------------------|
A|------------------------------------------------------------------------------|
F|------------------------------------------------------------------------------|
C|-0-0---0----7-5/7---0-0-0-----7-8\7-----1-1-33-1------------------------------|
G|-0-0---0----5-3/5---0-0-0-----5-6\5-----1-1-33-1------------------------------|
C|-0---0----0---------0---0-00--------0-0-1-1-33-1------------------------------|
   d d u d  d         d d u dd
   PM------PM         PM----PM        P-M

D|------------------------------------------------------------------------------|
A|------------------------------------------------------------------------------|
F|------------------------------------------------------------------------------|
C|-0-0---0----7-5/7---0-0-0-----7-8\7-----1-1-111//-----------------------------|
G|-0-0---0----5-3/5---0-0-0-----5-6\5-----1-1-111//-----------------------------|
C|-0---0----0---------0---0-00--------0-0-1-1-111//-----------------------------|
   d d u d  d         d d u dd
   PM------PM         PM----PM        P-M        Slide to 8's below.

D|------------------------------------------------------------------------------|
A|------------------------------------------------------------------------------|
F|------------------------------------------------------------------------------|
C|-8-8-8-8-8-8-8-8-8-8-8-8-8-8-8--8-7--8-7-9-7--8-7-9-7-8-7---------------------|
G|-8-8-8-8-8-8-8-8-8-8-8-8-8-8-8--8-7--8-7-9-7--8-7-9-7-8-7---------------------|
C|-8-8-8-8-8-8-8-8-8-8-8-8-8-8-8--8-7--8-7-9-7--8-7-9-7-8-7---------------------|

Listen hard above for timing here <----------------------->

Bridge X1

D|------------------------------------------------------------------------------|
A|------------------------------------------------------------------------------|
F|---7-----7---10---7---8-----7-10----8--8-8-8----------------------------------|
C|-0---0-0---0----0---0-----0------0--------------------------------------------|
G|------------------------------------------------------------------------------|
C|------------------------------------------------------------------------------|

D|------------------------------------------------------------------------------|
A|------------------------------------------------------------------------------|
F|---7-----7---10---7---8-----7-10---7------------------------------------------|
C|-0---0-0---0----0---0-----0------0--------------------------------------------|
G|------------------------------------------------------------------------------|
C|---------------------------------------7-7-7-10-7-----------------------------|

D|--------------------------------------------------------------------------------|
A|--------------------------------------------------------------------------------|
F|--------------------------------------------------------------------------------|
C|-5/7-----7---10----7----8----85/7---10---7---8---8-8-8--------------------------|
G|-3/5-----5---8-----5----6----63/5---8----5---6---6-6-6--------------------------|
C|-----0-0---0----00---00---00------0----0---0---0--------------------------------|
   PM-----------------------------------------------------------------------------|PM

D|--------------------------------------------------------------------------------|
A|--------------------------------------------------------------------------------|
F|--------------------------------------------------------------------------------|
C|-5/7-----7---10----7----8----85/7---10---7--------------------------------------|
G|-3/5-----5---8-----5----6----63/5---8----5--------------------------------------|
C|-----0-0---0----00---00---00------0----0----------------------------------------|
   PM-----------------------------------------------------------------------------|PM

Solololololololo X1

D|------------------------------------------------------------------------------|
A|------------------------------------------------------------------------------|
F|--B5--H17--P5--H22------------------------------------------------------------|
C|------------------------------------------------------------------------------|
G|------------------------------------------------------------------------------|
C|------------------------------------------------------------------------------|

Full Bend on 5, hold bend while hammering onto 17 with right hand. Pull off of 17
while holding 5 down still with your left hand and then do a hard hammer on to
22.

D|------------------------------------------------------------------------------|
A|------------------------------------------------------------------------------|
F|--T9P3T5P3-T10-T9-----T9P3T5P3-T9P3T5P3-T10P3T5P3-T9P3T5P3~~~-----------------|
C|------------------------------------------------------------------------------|
G|------------------------------------------------------------------------------|
C|------------------------------------------------------------------------------|

Tap the first part and then do a hold on 9, then finish it out with the last part,
the space above indicated first part, second part, respectively.

This is shown well in the offical video.

D|------------------------------------------------------------------------------|
A|------------------------------------------------------------------------------|
F|-----------------------------------9b--5-----------5--------------------------|
C|-------------7----7-8-7------------------5---5-5-7---7~~-7-7-5----------------|
G|-10-8-7-10-8---10-------10-8p7~--------------------------------7-6------------|
C|------------------------------------------------------------------------------|

Listen for timing.

D|------------------------------------------------------------------------------|
A|--------------------------------------13-big bend-13~~~~----------------------|
F|-9-10-9-12-9-10-9-9-12-9-10-9-10-12-------------------------------------------|
C|------------------------------------------------------------------------------|
G|------------------------------------------------------------------------------|
C|------------------------------------------------------------------------------|

D|--------------------------------T15P10H12P10-T15P10H12P10-T17P10H12P10--------|
A|-10h13p10----------12---------------------------------------------------------|
F|----------10h12p10----12p10~~-------------------------------------------------|
C|------------------------------------------------------------------------------|
G|------------------------------------------------------------------------------|
C|------------------------------------------------------------------------------|

D|------T15P10H12P10--------------T15P10H12P10----------------------------------|
A|-------------------T15P10H12P10--------------T15P10~~~~~~~--------------------|
F|------------------------------------------------------------------------------|
C|------------------------------------------------------------------------------|
G|------------------------------------------------------------------------------|
C|------------------------------------------------------------------------------|

Tapping according to performance on JK Live.

Chorus X1

D|------------------------------------------------------------------------------|
A|------------------------------------------------------------------------------|
F|------------------------------------------------------------------------------|
C|-0-0---0----7-5/7---0-0-0-----7-8\7-----1-1-111-------------------------------|
G|-0-0---0----5-3/5---0-0-0-----5-6\5-----1-1-111-------------------------------|
C|-0---0----0---------0---0-00--------0-0-1-1-111-------------------------------|
   d d u d  d         d d u dd
   PM------PM         PM----PM        P-M

 Listen hard for the above open C notes, they're there.

D|------------------------------------------------------------------------------|
A|------------------------------------------------------------------------------|
F|------------------------------------------------------------------------------|
C|-0-0---0----7-5/7---0-0-0-----7-8\7-----1-1-33-1------------------------------|
G|-0-0---0----5-3/5---0-0-0-----5-6\5-----1-1-33-1------------------------------|
C|-0---0----0---------0---0-00--------0-0-1-1-33-1------------------------------|
   d d u d  d         d d u dd
   PM------PM         PM----PM        P-M

D|------------------------------------------------------------------------------|
A|------------------------------------------------------------------------------|
F|------------------------------------------------------------------------------|
C|-0-0---0----7-5/7---0-0-0-----7-8\7-----1-1-111//-----------------------------|
G|-0-0---0----5-3/5---0-0-0-----5-6\5-----1-1-111//-----------------------------|
C|-0---0----0---------0---0-00--------0-0-1-1-111//-----------------------------|
   d d u d  d         d d u dd
   PM------PM         PM----PM        P-M        Slide to 8's below.

D|------------------------------------------------------------------------------|
A|------------------------------------------------------------------------------|
F|------------------------------------------------------------------------------|
C|-8-8-8-8-8-8-8-8-8-8-8-8-8-8-8--8-7--8-7-9-7--8-7-9-7-8-7---------------------|
G|-8-8-8-8-8-8-8-8-8-8-8-8-8-8-8--8-7--8-7-9-7--8-7-9-7-8-7---------------------|
C|-8-8-8-8-8-8-8-8-8-8-8-8-8-8-8--8-7--8-7-9-7--8-7-9-7-8-7---------------------|

Listen hard above for timing here <----------------------->

Final Chorus X1

D|--------------------------------------------------------------------------------|
A|--------------------------------------------------------------------------------|
F|--------------------------------------------------------------------------------|
C|-0-0-0---0--0-0--0--0-0--0--0-0--1-1-111----------------------------------------|
G|-0-0-0---0--0-0--0--0-0--0--0-0--1-1-111----------------------------------------|
C|-0-0-0---0--0-0--0--0-0--0--0-0--1-1-111----------------------------------------|
   PM-----------------------------------------------------------------------------|PM

D|------------------------------------------------------------------------------|
A|------------------------------------------------------------------------------|
F|------------------------------------------------------------------------------|
C|-0-0-0-0---0--0-0--0--0-0--0--0-0--1-1-3333-----------------------------------|
G|-0-0-0-0---0--0-0--0--0-0--0--0-0--1-1-3333-----------------------------------|
C|-0-0-0-0---0--0-0--0--0-0--0--0-0--1-1-3333-----------------------------------|

D|------------------------------------------------------------------------------|
A|------------------------------------------------------------------------------|
F|------------------------------------------------------------------------------|
C|-0-0-0-0---0--0-0--0--0-0--0--0-0--1-1-111//----------------------------------|
G|-0-0-0-0---0--0-0--0--0-0--0--0-0--1-1-111//----------------------------------|
C|-0-0-0-0---0--0-0--0--0-0--0--0-0--1-1-111//----------------------------------|

                                               Slide to 8's below.

D|------------------------------------------------------------------------------|
A|------------------------------------------------------------------------------|
F|------------------------------------------------------------------------------|
C|-8-8-8-8-8-8-8-8-8-8-8-8-8-8-8--8-7--8-7-9-7--8-7-9-7-8-7---------------------|
G|-8-8-8-8-8-8-8-8-8-8-8-8-8-8-8--8-7--8-7-9-7--8-7-9-7-8-7---------------------|
C|-8-8-8-8-8-8-8-8-8-8-8-8-8-8-8--8-7--8-7-9-7--8-7-9-7-8-7---------------------|

Listen hard above for timing here <----------------------->

Outro X1 (Different from intro please look below)

D|------------------------------------------------------------------------------|
A|------------------------------------------------------------------------------|
F|------------------------------------------------------------------------------|
C|-5/7-----7---10----7----8----85/7---10---7---8---8-8-8------------------------|
G|-3/5-----5---8-----5----6----63/5---8----5---6---6-6-6------------------------|
C|-----0-0---0----00---00---00------0----0---0---0------------------------------|

D|------------------------------------------------------------------------------|
A|------------------------------------------------------------------------------|
F|------------------------------------------------------------------------------|
C|-5/7-----7---------7-----8-------5-7--10--7-----------------------------------|
G|-3/5-----5---------5-----6-------3/5--8---5-----------------------------------|
C|-----0-0---0-0-0-0---0-0---0-0-0------------7-7-7-10-7------------------------|

D|------------------------------------------------------------------------------|
A|------------------------------------------------------------------------------|
F|------------------------------------------------------------------------------|
C|-5/7-----7---10----7----8----85/7---10---7---8---8-8-8------------------------|
G|-3/5-----5---8-----5----6----63/5---8----5---6---6-6-6------------------------|
C|-----0-0---0----00---00---00------0----0---0---0------------------------------|

D|------------------------------------------------------------------------------|
A|------------------------------------------------------------------------------|
F|------------------------------------------------------------------------------|
C|-5/7-----7---------7-----8-------5-7--10--7-------------0---------------------|
G|-3/5-----5---------5-----6-------3/5--8---5-------------0-let ring------------|
C|-----0-0---0-0-0-0---0-0---0-0-0------------7-7-7-10-7--0---------------------|

Leave a Reply

You must be logged in to post a comment.

Novità
Random guitar rhythm
Count per Day
  • 358385Total reads:
  • 9Reads today:
  • 543Reads last week:
  • 1742Reads per month:
  • 199117Total visitors:
  • 38Visitors per day:
  • 0Visitors currently online:
Clicca e Ascolta Scream Radio

A add9


Translate
EnglishFrenchGermanItalianPortugueseRomanianRussianSpanish
Cerca
Electric Guitar Learn

Advanced Training (20)
Band Emergenti (4)
Bass Lesson (50)
Beginners Training (51)
Blues (19)
Country (1)
Download (5)
Eventi e Concerti (5)
Hard Rock (22)
Intermediate Training (63)
Metal (21)
No Category (12)
Pop (13)
Punk (8)
Recensioni (1)
Rock (56)
Rock 'n Roll (6)
Rythm (37)
Scales (2)
Style (2)
Uncategorized (2)

WP Cumulus Flash tag cloud by Roy Tanck requires Flash Player 9 or better.

Active Categories