Indestructible – Disturbed

Bass comes in at 0:34

F---------------------------------------------------------|
C---------------------------------------------------------|
G-3-5-----5-8-----5----6---5-6-3-5---8---5-6--6-6-6-------|
C-----0-0--0--0-0--0-0---0---------0---0------------------|

F----------------------------------------------------------|
C----------------------------------------------------------|
G-3-5-----5-8-----5----6---5-6-3-5---8---5--0-0-0-3-0------|
C-----0-0--0--0-0--0-0---0---------0---0-------------------|  X4

Verse 1

F------------------------------------------------------------|
C------------------------------------------------------------|
G------------------------------------------------------------|
C-00--000--00--00--00-0-0-00-000-00-00-00-0-0-00-000--00--00-|

F----------------------------------------------------------|
C----------------------------------------------------------|
G----------------------------------------------------------|
C-00-0-0-00-000-00-00-00-0-0-------------------------------|

Pre-Chorus
F---------------------------------------------------------|
C---------------------------------------------------------|
G--------8-10-8-3-----------------------------------------|
C-5-5-5------------8-8-8--8-8-8-7-8-7---------------------|

Chorus (Probably not right but close enough)
F---------------------------------------------------------------|
C---------------------------------------------------------------|
G-----------5---3/5-----5--55-----5---6/5-----------------------|
C-0-0-0-0-0---0-----0-0-------0-0---0----0-0-1--3-3-3-1---------|
This part 3 times then on the fourth swap to this

F--------------------------------------------------------|
C--------------------------------------------------------|
G---------------------------/13-12-13-12-13-12-----------|
C-/8-8-8--8888-88-8-7-8-7-8------------------------------|

Intro Again
X4

Verse 2 (Same as verse 1 but with a slight change)
F--------------------------------------------------|
C--------------------------------------------------|
G--------------------------------------------------|
C-00--000-00-00-00-0-0-0-12\-000-00----------------|

F-------------------------------------5------------|
C----------------------------------5-7--3-5-7------|
G--------------------------------------------------|
C00--000-00-00-00-0-0-0-12\-000-00-----------------|

Pre-Chorus 2

F---------------------------------------------------------|
C---------------------------------------------------------|
G--------8-10-8-3-----------------------------------------|
C-5-5-5------------8-8-8--8-8-8-7-8-7---------------------|

Chorus 2
F---------------------------------------------------------------|
C---------------------------------------------------------------|
G-----------5---3/5-----5--55-----5---6/5-----------------------|
C-0-0-0-0-0---0-----0-0-------0-0---0----0-0-1--3-3-3-1---------|
This part 3 times then on the fourth swap to this

F--------------------------------------------------------|
C--------------------------------------------------------|
G---------------------------/13-12-13-12-13-12-----------|
C-/8-8-8--8888-88-8-7-8-7-8------------------------------|

Bridge

F--------------------------------------------------------|
C--------------------------------------------------------|
G--------------------------------------------------------|
C-0~---12\----0~---12\-----------------------------------|

F---------------------------------------------------------|
C---------------------------------------------------------|
G-3-5-----5-8-----5----6---5-6-3-5---8---5-6--6-6-6-------|
C-----0-0--0--0-0--0-0---0---------0---0------------------|

F----------------------------------------------------------|
C----------------------------------------------------------|
G-3-5-----5-8-----5----6---5-6-3-5---8---5\----------------|
C-----0-0--0--0-0--0-0---0---------0---0-------------------|

Solo

F----------------------------------------------------------|
C----------------------------------------------------------|
G----------------------------------------------------------|
C-7-7-7-77-8-88\5-5-55-3-33-1------------------------------|X4

F----------------------------------------------------------|
C----------------------------------------------------------|
G----------------------------------------------------------|
C-3-3-3-33-3-2-22-2-2-2-2-2-2------------------------------|

Chorus 3
F---------------------------------------------------------------|
C---------------------------------------------------------------|
G-----------5---3/5-----5--55-----5---6/5-----------------------|
C-0-0-0-0-0---0-----0-0-------0-0---0----0-0-1--3-3-3-1---------|
This part 3 times then on the fourth swap to this

F--------------------------------------------------------|
C--------------------------------------------------------|
G---------------------------/13-12-13-12-13-12-----------|
C-/8-8-8--8888-88-8-7-8-7-8------------------------------|

Chorus 4
F---------------------------------------------------------------|
C---------------------------------------------------------------|
G-----------5---3/5-----5--55-----5---6/5-----------------------|
C-0-0-0-0-0---0-----0-0-------0-0---0----0-0-1--3-3-3-1---------|
This part 3 times then on the fourth swap to this

F--------------------------------------------------------|
C--------------------------------------------------------|
G---------------------------/13-12-13-12-13-12-----------|
C-/8-8-8--8888-88-8-7-8-7-8------------------------------|

Outro
F---------------------------------------------------------|
C---------------------------------------------------------|
G-3-5-----5-8-----5----6---5-6-3-5---8---5-6--6-6-6-------|
C-----0-0--0--0-0--0-0---0---------0---0------------------|

F---------------------------------------------------------|
C---------------------------------------------------------|
G-3-5-----5-------5-----5-----5---8---5\-0-0-0-3-0--------|
C-----0-0---0-0-0---0-0---0-0---0---0--------------0------|

Leave a Reply

You must be logged in to post a comment.

Novità
Random guitar rhythm
Count per Day
  • 363383Total reads:
  • 4Reads today:
  • 404Reads last week:
  • 4Reads per month:
  • 201514Total visitors:
  • 34Visitors per day:
  • 0Visitors currently online:
Clicca e Ascolta Scream Radio

A add9


Translate
EnglishFrenchGermanItalianPortugueseRomanianRussianSpanish
Cerca
Electric Guitar Learn

Advanced Training (20)
Band Emergenti (4)
Bass Lesson (50)
Beginners Training (51)
Blues (19)
Country (1)
Download (5)
Eventi e Concerti (5)
Hard Rock (22)
Intermediate Training (63)
Metal (21)
No Category (12)
Pop (13)
Punk (8)
Recensioni (1)
Rock (56)
Rock 'n Roll (6)
Rythm (37)
Scales (2)
Style (2)
Uncategorized (2)

WP Cumulus Flash tag cloud by Roy Tanck requires Flash Player 9 or better.

Active Categories